Some Day The Sun Won't Shine For You
words and music by  IAN ANDERSON

TRANSCRIPTION BY PACO JIMENEZ (SPAIN)
pacojimenezz@hotmail.com

this is a classic twelve bar blues,the this was early version was in B tune
a little light music track is in G tune.....
so for this was i suggest to be played CAPO 2,open A,
for a little light music CAPO 3,open E,

12 bar blues A
 
A7 A7 A7 A7
D7 D7 A7 A7
E7 D7 A7(riff to close) E7

A(relative to capo2) RIFF suggest rythmn'

E||-------------------------|
B||-------------------------|
G||-------------------------|
D||-2--2--4--5----5-------2-|X each bar
A||-0-----0-----0----3h4----|
E||-------------------------|
 
 
D(relative to capo2) RIFF
E||--------------------------|
B||--------------------------|
G||-2--2--4--5----5-------2--|
D||-0-----0-----0----3h4-----|
A||--------------------------|
E||--------------------------|
E(relative to capo2) RIFF
E||--------------------------|
B||--------------------------|
G||--------------------------|
D||--------------------------|
A||-2--2--4--5----5-------2--|
E||-0-----0-----0----3h4-----|

 

A7
In the morning -- gonna get my things together.
        D7                          A7
Packing up and I'm leaving this place.
           E7
I don't believe you'll cry,
D7                             A7  riff* to close + E7
there'll be a smile upon your face.

A7
I didn't think how much you'd hurt me.
   D7                               A7
That's something that I laugh about.
             E7
Bring in the good times, baby.
            D7           A7     E7
And let the bad times out.

reat of lyrics:

That old sun keeps on shining,
But someday it won't shine for you.
In the morning I'll be leaving.
I'll leave your mother too.

riff* to close
(relative to capo2)
E||----9-------8--------7------5-------|
B||----------------------------5-------|+E7
G||-9----9--8----8---7----7--6---------|
D||------------------------------------|
A||-------------------------------5-6-7|
E||------------------------------------|
 
 
 
 
 



  1