Play In Time - Jethro Tull

Intro
e|--------------------------------------------------------------------
B|--------------------------------------------------------------------
G|---------------------------------0----------------------------------
D|----0--1--2--2---2-2---0--2---------0--1--2--2---2---0--2--0--------
A|--------------------------------------------------------------------
E|--------------------------------------------------------------------
 

e|--------------------------------------------------------------------
B|--------------------------------------------------------------------
G|---------------------------------0--2--0----------------------------
D|----0--1--2--2---2-2---0--2------------0--2--2----------------------
A|--------------------------------------------------------------------
E|--------------------------------------------------------------------

e|-----------------------------------------------------------------
B|-----------------------------------------------------------------
G|-----------------------------------------------------------------
D|---------------------------------0-------------------------------
A|----0--1--2--2---2-2---0--2---------0--1--2--2---2---0--2--0-----
E|-----------------------------------------------------------------

e|-----------------------------------------------------------------
B|-----------------------------------------------------------------
G|-----------------------------------------------------------------
D|---------------------------------0--2--0-------------------------
A|----0--1--2--2---2-2---0--2------------0--2--2-------------------
E|-----------------------------------------------------------------
 

Verse 1
e|----------------------------------------|-----------------------------
B|----------------------------------------|-----------------------------
G|-----------------0----------------------|-------------0---------------
D|--2--2-0h2--------------2--2-0h2---0----|--2--2-0h2------2--2-0h2---0-
A|----------------------------------------|-----------------------------
E|----------------------------------------|-----------------------------
Got to take in what I can              There is no time to do what must be

e|-----------------------------------------|----------------------------
B|-----------------------------------------|----------------------------
G|-----------------------------------------|----------------------------
D|-----------------0-----------------------|-------------0--------------
A|--2--2-0h2--------------2--2-0h2---0-----|--2--2-0h2------2--2-0h2--0-
E|-----------------------------------------|----------------------------
        done                            While I do some

e|----------------------------------------|------------------------------
B|----------------------------------------|------------------------------
G|-----------------0----------------------|-----------------0------------
D|--2--2-0h2--------------2--2-0h2---0----|--2--2-0h2-----------2--2-0h2-
A|----------------------------------------|------------------------------
E|----------------------------------------|------------------------------
thinking

Verse2
(same as verse 1)
Sleeping is hard to come by
So we'll all sit down
And try to play in time
And we feel like swinging
 

Chorus

C9                     Bb            Am
Talking to the people in my way
C9                     Bb            Am
Talking to the people in my way

Verse 3
Blues were my favourite colour
Till I looked around and found another song
That I felt like singing

Verse 4
Trying so hard to reach you
Playing what must be played what must be sung
And it's what I'm singing

Chorus

Talking to the people in my way
Talking to the people in my way

Solo

Repeat first half of intro to fade

submited  by Don Bell
bellfam@q-net.net.au
 
 
 
 
 
 
  1