Nice little tune

capo 2:

 E                        A                     E      A              E
 
|----0--2--4--4-|-4---2-4-|--7-5-4-----5-4---0-|
|-0h5-----------|-5-------|---------7----------|
|-1-------------|-4-------|--------------------|
|-2-------------|-6-------|--------------------|
|-2-------------|-X-------|--------------------|
|-0-------------|-X-------|--------------------|
0---|-4--2--0----|
0---|-----------0|
1---|------------|
2---|------------|
2---|------------|
0---|------------|
-0--|-4--2--0-----|
-0--|----------0-2|
-1--|-------------|
-2--|-------------|
-2--|-------------|
-0--|-------------|

F#m        B       Em  /   D  /  /  /|: E            A            G        :|x2
 
|----------------|------|------------
|(2)--0----0-----|------|------------
|--------2-------|------|------------
|----------------|------|------------
|----------------|------|------------
|----------------|------|------------
|--0--0----0---|-----------|--------|
|-------3------|---2-2--3--|-0------|
|--------------|---2-------|--------|
|--------------|---2-------|--------|
|--------------|---0-------|--------|
|--------------|-----------|--------|

 repeat all

%|: E    A   G :| x3  A  G  A  G  A  G  D

start crash barrier waltzter

Tabbed BY PACO JIMENEZ (SPAIN)
 thanks to Tim Sullivan <seamus1234@cox.net>
for his contribution with the chords progression

ALL CORRECTIONS ARE WELCOME
pacojimenezz@hotmail.com