Elegy(Capo3)ACOUSTIC GUITAR PART
words and music by  DAVID PALMER
TRANSCRIPTION BY PACO JIMENEZ (SPAIN)
pacojimenezz@hotmail.com

First part play only bass lines without chords
E||--------------------|--------------------|--------------------|
B||--------------------|--------------------|--------------------|
G||--------------------|--------------------|--------------------|
D||--0-----------------|--------------------|--------------------|
A||-----------4--------|--2--------0--------|--------------------|
E||--------------------|--------------------|--3--------2--------|

                                           start chords
--------------------|--------------------|--------------------|
--------------------|--------------------|--------------------|
--------------------|--------------------|--------------------|
--------------------|--0-----------------|--------------------|
-----------0--------|-----------4--------|--2--------0--------|
--0-----------------|--------------------|--------------------|
                                              D        D/C#        Bm       A
                                                              --------------------|--------------------|--------------------|
--------------------|--------------------|--------------------|
--------------------|--------------------|--------------------|
--------------------|--------------------|--0-----------------|
--2--------0--------|-----------0--------|-----------4--------|
--------------------|--3-----------------|--------------------|
  Bm        Bm/A        G         A           D        D/C#

--------------------|--------------------|--------------------|
--------------------|--------------------|--------------------|
--------------------|--------------------|--------------------|
--------------------|--------------------|--------------------|
--2--------0--------|--------------------|-----------0--------|
--------------------|--3--------2--------|--0-----------------|
  Bm        Bm/A        G        D/F         Em       A7

--------------------|--------------------|--------------------|
--------------------|--------------------|--------------------|
--------------------|--------------------|--------------------|
--0-----------------|--------------------|--------------------|
-----------4--------|--2--------0--------|--2--------0--------|
--------------------|--------------------|--------------------|
   D        D/C#         Bm       A          Bm        Bm/A

 
--------------------|----------------------|----------------------|
--------------------|----------------------|----------------------|
--------------------|----------------------|----------------------|
--------------------|--0-------------------|----------------------|
-----------0--------|----------------------|--2------------0------|
--3-----------------|----------------------|----------------------|
    G        A          D arpeggio              Bm           Bm/A
                                            (start electric guitar)
 

-------------------------|-------------------|-------------------|
-------------------------|-------------------|-----------0-------|
-------------------------|-------------------|------------2------|
-------------------------|--2--------0-------|-------------------|
-------------------------|-------------------|--2----------------|
--3------2---------------|-------------------|-------------------|
    G      D/F#               Em       D          Bm       Bm/A

--------------------|--------------------|--------------------|
--------------------|--------------------|--------------------|
--0-----------------|--------------------|--------------------|
-----------4--------|--2--------0--------|--------------------|
--------------------|--------------------|--3--------2--------|
--------------------|--------------------|--------------------|
  G        D/F#        Em       D          C        B7

--------------------|--------------------|--------------------|
--------------------|--------------------|--------------------|
--------------------|--------------------|--------------------|
--2--------0--------|-----------0--------|--------------------|
--------------------|--3-----------------|--------------------|
--------------------|--------------------|--3--------2--------|
  Em       D          C         D7           G        D/F#

--------------------|--------------------|--------------------|
--------------------|--------------------|--------------------|
--------------------|--------------------|--------------------|
--------------------|--0-----------------|--------------------|
-----------0--------|-----------4--------|--2--------0--------|
--0-----------------|--------------------|--------------------|
  Em       A7         SAME THAN FIRTS PART
 
 

--------------------|--------------------|--------------------|
--------------------|--------------------|--------------------|
--------------------|--------------------|--------------------|
--------------------|--------------------|--0-----------------|
--------------------|-----------0--------|-----------4--------|
--3--------2--------|--0-----------------|--------------------|

--------------------|--------------------|
--------------------|--------------------|
--------------------|--------------------|
--------------------|--------------------|
--2--------0--------|--2--------0--------|
--------------------|--------------------|

--------------------|----------------------|----------------------|
--------------------|----------------------|----------------------|
--------------------|----------------------|----------------------|
--------------------|--0-------------------|----------------------|
-----------0--------|----------------------|--2------------0------|
--3-----------------|----------------------|----------------------|
    G        A          D arpeggio              Bm           Bm/A
                                            (start electric guitar)
 

-------------------------|-------------------|-------------------|
-------------------------|-------------------|-----------0-------|
-------------------------|-------------------|------------2------|
-------------------------|--2--------0-------|-------------------|
-------------------------|-------------------|--2----------------|
--3------2---------------|-------------------|-------------------|
    G      D/F#               Em       D          Bm       Bm/A

--------------------|--------------------|--------------------|
--------------------|--------------------|--------------------|
--------------------|--------------------|--------------------|
--2--------0--------|--------------------|--2--------0--------|
--------------------|--3--------2--------|--------------------|
--------------------|--------------------|--------------------|
E7        G7??????     C        B7           Em       D
 

----------------|--------------------------|--------------------------|
----------------|--------------------------|--------------------------|
----------------|--------------------------|--------------------------|
-----------0----|--------------------------|--------------------------|
--3-------------|--------------------------|--------------------------|
----------------|--3--3--3--3--3--3--3--3--|--2--2--2--2--2--2--2--2--|
   C        D7       G                          F#7

----------------------------|--------------------|-------------------|
----------------------------|--------------------|-------------------|
----------------------------|--------------------|--2----------------|
--------------2------0------|-----------0--------|-------------------|
----------------------------|--4-----------------|-------------------|
--0--0--0--0----------------|--------------------|-------------------|
 Em           
------------------------------|--------------------|--------------------|
------------------------------|--------------------|--------------------|
--2------2------2------2------|--------------------|--------------------|
------------------------------|--0-----------------|--------------------|
--0---------------------------|-----------4--------|--2--------0--------|
------------------------------|--------------------|--------------------|
 A
--------------------|--------------------|--------------------|
--------------------|--------------------|--------------------|
--------------------|--------------------|--------------------|
--------------------|--------------------|--0-----------------|
--------------------|-----------0--------|-----------4--------|
--3--------2--------|--0-----------------|--------------------|

--------------------|--------------------|--------------------|
--------------------|--------------------|--------------------|
--------------------|--------------------|--------------------|
--------------------|--------------------|--------------------|
--2--------0--------|--2--------0--------|-----------0--------|
--------------------|--------------------|--3-----------------|

--------------------|--------------------|--------------------|
--------------------|--------------------|--------------------|
--------------------|--------------------|--------------------|
--0-----------------|--------------------|--------------------|
-----------4--------|--2--------0--------|--------------------|
--------------------|--------------------|--3--------2--------|

--------------------|--------------------|--------------------|
--------------------|--------------------|--------------------|
--------------------|--------------------|--------------------|
--------------------|--0-----------------|--------------------|
-----------0--------|-----------4--------|--2--------0--------|
--0-----------------|--------------------|--------------------|

--------------------|--------------------|--------------------|
--------------------|--------------------|--------------------|
--------------------|--------------------|--------------------|
--------------------|--------------------|--0-----------------|
--2--------0--------|-----------0--------|-----------4--------|
--------------------|--3-----------------|--------------------|

--------------------|--------------------|--------------------|
--------------------|--------------------|--------------------|
--------------------|--------------------|--------------------|
--------------------|--------------------|--------------------|
--2--------0--------|--------------------|-----------0--------|
--------------------|--3--------2--------|--0-----------------|

--------------------|--------------------|--------------------|
--------------------|--------------------|--------------------|
--------------------|--------------------|--------------------|
--0-----------------|--------------------|--------------------|
-----------4--------|--2--------0--------|--2--------0--------|
--------------------|--------------------|--------------------|

--------------------|------------------||
--------------------|------------------||
--------------------|------------------||
--------------------|------------------||
-----------0--------|------------------||
--3-----------------|------------------||

no finished at all ,will be revised 1