From: Nikolai Ilinsky <niki@glas.apc.org>
Newsgroups: alt.music.jethro-tull
Date: 05 Jul 94 17:47 GMT+0400
Subject: JEthro Tull Dun Ringill TAB

Hello!
This is version of JT "Dun Ringill" from ftp.nevada.edu corrected on my mind.
I take original track from Jethro Tull "Stormwatch" album.
I think that it's about right.

Send corrections and questions to:
 
 To: niki@glas.apc.org
 Subject: For Peter Kabanov
 
Best regards.
   Peter Kabanov. Moscow, Russia.
 

DUN RINGILL

 v: strike strings from E->e
 ^: strike strings from e->E

Capo at III

                      v ^  v    ^ v   ^ v ^ v ^ v ^    v ^ v ^ v  ^
e:|-------------------0----0-|--------2--0--------0--0-|
h:|-------------------1----0-|------3-3--3------3-3--1-|
g:|----2-----2---2----2----2-|----2---2--0----2---2--2-|And again this
D:|--2------2---0-----0----0-|--0-----0--0--0-----0--0-|
A:|-0-----------------0----0-|-------------(0)---------|
E:|--------3---2-----(2)--(2)|-------------------------|

    Clear  light from a         slick palm ...                 As I
    Miss   deal  the day
    Slip the night from    a    shaved pack                    make a
    marked card       play
    Call   twilight   hours     down                           From a
    Hea-   ven        home
    High   above the  highest   bidder                         for  the
    good   Lord's     throne                                   In the ...

    watch the  Gods   play
    by Dun Rin-       gill
 

    C              D                                         G

    v ^ v ^ v ^    v ^ v ^ v ^   v ^ v ^ v ^   v ^ v ^ v ^   v ^  v ^ v ^
e:|-0-----0-0-0--|-2-----2-2-2-|-0>2---2-2-2-|-0>2---2-2-2-|-3-3--3-3-3-3-
h:|-1-----1-1-1--|-3-----3-3-3-|-3-3---3-3-3-|-3-3---3-3-3-|-0-0--0-0-0-0-
g:|-0-----0-0-0--|-2-----2-2-2-|-0>2---2-3-3-|-0>2---2-2-2-|-0-0--0-0-0-0-
D:|-2-----2-2-2--|-0-----0-0-0-|-0-0---0-0-0-|-0-0---0-0-0-|-0-0--0-0-0-0-
A:|-3-----3-3-3--|-------------|-------------|-------------|-2-2--2-2-2-2-
E:|--------------|-------------|-------------|-------------|-3-3--3-3-3-3-

    wee hours I'll meet   you ...                            down by  Dun

    F
 
    v ^ v ^ v ^    v ^ v ^ v ^
e:|--------------|--------------|
h:|-1------------|--------------|
g:|-2----(2)-(2)-|(2)----2-2-2--|
D:|-3-----3---3--|-3-----3-3-3--| ... from beginning
A:|-3-----3---3--|-3-----3-3-3--|
E:|-1-----1---1--|--------------|

    Ringill ....

We'll wait in stone circles
 'til the force comes through.
Lines join in faint discord
 as the Stormwatch brews.
A concert of Kings
 as the white sea snaps.
And the heels of a soft prayer
 whispered

In the wee hours I'll meet you
  down by Dun Ringill
  now take you quickly
  by Dun Ringill
  1