Jethro Tull: Bad-eyed and loveless
Album: Too old to rock'n'roll, too young to die
Tab: Håkan Mattsson

Updated: 2013-12-08

This is my first try on this song. It's not very easy to hear
every note, and I'm having some difficulties to decide where
he playes the notes on the guitar. But it's something, at least!

Any suggestions are welcome.


       |----0---------0---0---0-----------
       |0h3---3------------3--------------
       |--------2-0-------------2h4-------
       |------------2-----------------0-2-
       |----------------------------2-----
       |---------(3-0)--------------------
Yes'n she's    ba-a-ad-eyed         and she's...


  Em7      Am               Am                  Bm            Em
|-7-7-7--7-5----------5-5-5-0-0-----------------2-------------0-
|-8-8-8--8-5----------5-5-5-3-1----0-1--3s5-3---3-------------0-
|-7-7-7--7-5----------5-5-5-2-2--2------------4-4-------------0-
|-9-9-9--9-7----5-6-7---7-7-2-2-----------------4----0-4------2-
|-7-7-7--7-7--7---------7-7-0-0-----------------2--2----------2-
|-7-7-7--7-5------------5---------------------------------3s0-0-
 lo-o-ove-less.                A young man's fancy and an old
                                                           man's
                                                             dream.

 Em
|---------------------------------------12-
|--------------------------------------12--
|-------------------------------------12---
|------5--7p5-------------5----------(2)---
|2s5-7--------7---2s5h7-7------------------
|---------------------------0-0-3-0-0------
                                      ^: 2 and 12,12,12
                                         alternatively


I'm self raising and I flower in her company.
Give me no sugar without her cream.

She's a warm fart at Christmas.
She's a breath of champagne on sparkling night.
Yes'n she's bad-eyed and she's loveless.
Turns other women to envious green.

Yes'n she's bad-eyed and she's loveless.
She's a young man's vision --- in my old man's dream.

Ending:

|5--5s0-0--0--------------------------------0---------
|-----------0---0---1p0-------------------------------
|------------2---------2p0----------------------------
|--------------------------4p2---0--2--4--------------
|------------------------------2----------2-----------
|-------------------------------------------------0-0-