From: "danjel ...ja" <daniel_16@hotmail.com>
Subject: tab:Look Into The Sun
Date: Thu, 04 Dec 1997 11:29:51 PST

Here's the way I play Look Into The Sun

I've finally got time to tab this one out, it's one of my Tull
favorites.
It's from the Stand Up album. Now to it.

Standard tuning no capo.
Key=A-major
                        Intro & Between verses
   A
E|--------------------------------------------------------------------|
B|--------------------------------------------------------------------|
G|--------------------------------------------------------------------|
D|11-11-11-11-11h12-11---9--9--9--9--9-9h11-9---repeat--then----7-----|
A|-0-letring0-letring0---0-letring0----0-----2x-----------------0-----|
E|--------------------------------------------------------------------|

  A                               A     E           C     A
E|--------------------------------0-----0-----------0-----------------|
B|---------2----------------------2-----0-----------1-------------2---|
G|-----2---------------------2----2-----1-----------0---------2-------|
D|-0h2---------------0---2--------2-----2-----------2-----0h2---------|
A|-------0-------4----------------0-----2-----------3-----------0-----|
E|--------------------------------------0-----------0-----------------|
                Took a  sad song__  of one sweet   ev___ening
   A    E          C      D          A
E|-0----0----------0------2----------0--------------------------------|
B|-2----0----------1------3----------2--------------------------------|
G|-2----1----------0------2----------2--------------------------------|
D|-2----2----------2------0----------2--------------------------------|
A|-0----2----------3-----------------0--------------------------------|
E|------0-------------------------------------------------------------|
   I  smiled and quickly tu__rned away
   A                              A     E           C     A
E|--------------------------------0-----0-----------0-----------------|
B|---------2----------------------2-----0-----------1-------------2---|
G|-----2---------------------2----2-----1-----------0---------2-------|
D|-0h2---------------0---2--------2-----2-----------2-----0h2---------|
A|-------0-------4----------------0-----2-----------3-----------0-----|
E|--------------------------------------0-----------0-----------------|
               It's not ea__sy        singing      sad   songs
   A    E        C       D  Dsus4 D      A
E|-0----0--------0-------2----3---2------0----------------------------|
B|-2----0--------1-------3----3---3------2--------------2-------------|
G|-2----1--------0-------2----2---2------2----------2-----------------|
D|-2----2--------2-------0----0---0------2------0h2-------------------|
A|-0----2--------3-----------------------0------------0---------------|
E|------0-------------------------------------------------------------|
  but still the easiest way__I have to say

   A            G             D     A
E|-0------------3-------------2-----0---------------------------------|
B|-2------------3-------------3-----2---------------------------------|
G|-2------------0-------------2-----2---------------------------------|
D|-2------------0-------------0-----2---------------------------------|
A|-0------------2-------------------0---------------------------------|
E|--------------3-----------------------------------------------------|
   So when you look into the sun
   and see the things we haven't done
   oh was it better then to run                              than to
   C           D   C      A            C         D   C      A
E|----------------------------------------------------------0-------|
B|----------------------------------------------------------2-------|
G|----------------------------2-----------------------------2-------|Intro
D|-2----0---2--4---2------0h2----2-----2--0---2--4---2------2-------|2x
A|-3----0---3--5---3-------------------3--0---3--5---3------0-------|
E|------------------------------------------------------------------|
 spend the summer crying            Now summer cannot come anyway
 

I had waited for time to change her.
The only change that came was over me.
She pretended not to want love --
I hope she was only fooling me.
So when you look into the sun
look for the pleasures nearly won.
Or was it better then to run
than to spend the summer singing.
And summer could have come in a day.

So if you hear my sad song singing
remember who and what you nearly had.
It's not easy singing sad songs
when you can sing the song to make me glad.
So when you look into the sun
and see the words you could have sung:
It's not too late, only begun,
we can still make summer.
Yes, summer always comes anyway.

So when you look into the sun
and see the words you could have sung:
It's not too late, only begun.
Look into the sun.

Please send any corrections to Daniel_16@hotmail.com

If anyone have the chords to Jeffrey, Collins and me, Nothing to say
or any other early Tull song please send it.

That's it.

________________________ 1