JETHRO TULL: Ian Anderson

 

Album: Stormwatch

 

Song: Home

 

By Mattia Ghion

 

Capo: 2nd fret

 

     

F#-|---------------------------------------3---------

B -|----3----------2-----------0-----------0----------

E -|----2----------0-----------0-----------0----------

A -|----0----------0-----------0-----------0----------

C#-|----1----------1-----------1-----------1----------

F#-|----0----------0-----------0-----------0----------

 

          As the dawn sun breaks over sleepy gardens

 

 

          F       C         F                Am                                

F#-|------1-----------------1----------------------------

B -|------3-------3---------3----------------0-----------

E -|------3-------2---------3----------------2-----------

A -|------2-------0---------2----------------2-----------

C#-|------1-------1---------1----------------1-----------

F#-|------1-------0---------1----------------0-----------

 

          I'll be here to do all things to comfort you.

 

 

       G                  Am         G                                         

F#-|---3-----------------------------3--------------------

B -|---2------------------0----------2--------------------

E -|---0------------------2----------0--------------------

A -|---0------------------2----------0--------------------

C#-|---0------------------1----------0--------------------

F#-|---1------------------0----------1--------------------

 

          And though I've been away

 

 

                   C             G                                    

          Left you alone this way                                     

                        F              D                              

          Why don't you come awake                                    

                       G                   C G  Am C F Am Dm C7sus4   

          And let your first smile take me ho---me.                   

 

        C             Am                                 F            

          The shadows in the park were longer yesterday               

                   C              G  Am                         G     

          and Lady Luck stood still, waiting for the kill.            

                   Am                                                 

          And on a jumbo ride                                         

        G           C                  G                              

          over seas grey, deep and wide                               

                       F             D                                

          I flew for heaven's sake                                    

                     G               C G  Am C F Am Dm C7sus4         

          and let the angels take me ho---me.                         

 

 

         C               Am                                       F   

          Down steep and narrow lanes I see the chimneys smoking      

                    C            G Am                         G       

          above the golden fields know what the robin feels           

                          Am         G                                

          in his summer jamboree.                                      

               C            G                                         

          All elements agree                                          

                       F             D                                

          in sweet and stormy blend                                   

                     G                  C G  Am C F Am Dm C7sus4      

          midwife to winds that send me ho---me.                      

 

 

 

F#-|-----------------------------------------------

B -|--3------------3------------3------------------

E -|--3---------3--3---------3--3-----------3-2----

A -|--3-------3----3-------3----3-------3----------

C#-|--1-----1------1-----1------1-----1------------

F#-|--1---1--------1---1--------1---1--------------

 

 

 

 

 

 

1