From Later - Jethro Tull
 

Cm      Cm      Cm      Cm
C#m     C#m     Cm      Cm

"verse riff"
e-----------------------------------------------------------
B-----------------------------------------------------------
G-----------------------------------------------------------
D---10--10--8-----------------8-10-10-8------------------8--
A--------------10---------10--------------10---------10-----
E------------------11--11---------------------11-11---------

e-----------------------------------------------------------
B-----------------------------------------------------------
G-----------------------------------------------------------
D---10--10--8-----------------8-10-10-8------------------8--
A--------------10---------10--------------10---------10-----
E------------------11--11---------------------11-11---------

e-----------------------------------------------------------
B-----------------------------------------------------------
G-----------------------------------------------------------
D---11--11--9-----------------9-11-11-9------------------9--
A--------------11---------11--------------11---------11-----
E------------------12--12---------------------12-12---------

e-----------------------------------------------------------
B-----------------------------------------------------------
G-----------------------------------------------------------
D---10--10--8-----------------8-10-10-8------------------8--
A--------------10---------10--------------10---------10-----
E------------------11--11---------------------11-11---------
 

"chorus riff"

e-------------------------------------------------------------------------
B-------------------------------------------------------------------------
G-------------------------------------------------------------------------
D-8--10--11--8--11--8--11--8--11-11--8--10--11--8--11--8--11--8--11-11----
A-------------------------------------------------------------------------
E-------------------------------------------------------------------------

e---------------------------------------
B---------------------------------------
G---------------------------------------
D-12--10--8------10--8------------------        then back into "verse riff" and repeat
A------------10--------10---------------
E---------------------------12----------
 
 

interlude

Cm      Cm      Cm      Cm

Dm      Dm      G F F E E Db Db B

Cm

Then back to "verse riff" and "chorus riff"

To end

Cm///   Cm///   Cm///   Dbmaj7/ Absus4/ Absus4/Csus4/
 

submited  by Don Bell
bellfam@q-net.net.au 1