One of my favourite parts of Passion Play sounds even better when it's
played on acoustic guitar in Chateau D'Isaster's Critique Oblique...
 

emacs tuning: (capo 3rd fret)

g-|
D-|
Bb|
F-|
C-|
G-|
 

X = harmonics
 

    Em  X     X  X  X  X  E  Eb    Bb Em               Em G         rpt

g-|--0--------7-----7--7--7--7--7--6-------/0--------------------------0--3-----------|
D-|--0--------9-----9--9--9--9--9--8-------/0--------------------------0--0-----------|
Bb|--0--------9-----9--9--9--9--9--8-------/0--------------------------0--0-----------|
F-|--2--------9-----9--9--9--9--9--8-----8-/2--------------------------2--0-----------|
C-|--2--------7-----7--7--7--7--7--6-----8-/2-----------------2--1--0--2--2-----------|
G-|--0--------7-----7--7--7--7--7--6-----6-/0--------0--2--3-----------0--3-----------|

                             ^slip whole chord down the neck from
                                          6th fret to open Em
 
 

Em        X     X  X  X  X  E     Eb          Bb    Em      Em G rpt

g-|--0--------7-----7--7--7--7--7-----6----------------/0--------------------------0--3--|
D-|--0--------9-----9--9--9--9--9-----8----------------/0--------------------------0--0--|
Bb|--0--------9-----9--9--9--9--9-----8----------------/0--------------------------0--0--|
F-|--2--------9-----9--9--9--9--9-----8-----------8----/2--------------------------2--0--|
C-|--2--------7-----7--7--7--7--7-----6-----------8----/2-----------------2--1--0--2--2--|
G-|--0--------7-----7--7--7--7--7-----6-----------6----/0--------0--2--3-----------0--3--|
Critic of the black and white    it's your   first night                         The...
     Passion Play gets in the way it  spoils your in----sight                      tell me how's
 
 

     Em                                  Em       G        A

g-|--0-----------------------------------0--------3--------0----------------------------
D-|--0-----------------------------------0--------0--------2----------------------------
Bb|--0-----------------------------------0--------0--------2----------------------------
F-|--2-----------------------------------2--------0--------2----------------------------
C-|--2--------------------------2--1--0--2--------2--------0-----------------2--1--0----
G-|--0-----------------0--2--3-----------0--------3-----------------0--2--3-------------

 the baby's made?                        How the  lady's   laid?
 
 

     Em          G        A                    Em G  A        A     Em...

g-|--0-----------3--------0--------------------0--3--0--------0--|----
D-|--0-----------0--------2--------------------0--0--2--------2--|----
Bb|--0-----------0--------2--------------------0--0--2--------2--|----
F-|--2-----------0--------2--------------------2--0--2--------2--|----
C-|--2-----------2--------0--------------------2--2--0--------0--|----
G-|--0-----------3-----------------------------0--3--------------|----

     While the   old dogs howl with sadness
 
 
 
 

Paul gui'Tarvydas
tarvydas@tsctrl.guild.org
  1